ISO-10303-21;
HEADER;
FILE_DESCRIPTION (( 'STEP AP203' ),
    '1' );
FILE_NAME ('250814 STEP 3-400775-00_6001.STEP',
    '2025-08-14T06:59:06',
    ( '' ),
    ( '' ),
    'SwSTEP 2.0',
    'SolidWorks 2024',
    '' );
FILE_SCHEMA (( 'CONFIG_CONTROL_DESIGN' ));
ENDSEC;

DATA;
#1 = LOCAL_TIME ( 9, 59, 6.000000000000000000, #24 ) ;
#2 = CIRCLE ( 'NONE', #231, 144.0000000000000000 ) ;
#3 = CIRCLE ( 'NONE', #341, 159.2350000000000136 ) ;
#4 = DIRECTION ( 'NONE',  ( -1.000000000000000000, 0.000000000000000000, 0.000000000000000000 ) ) ;
#5 = FACE_BOUND ( 'NONE', #131, .T. ) ;
#6 = EDGE_CURVE ( 'NONE', #74, #74, #373, .T. ) ;
#7 = DIRECTION ( 'NONE',  ( -1.000000000000000000, 0.000000000000000000, 0.000000000000000000 ) ) ;
#8 = CIRCLE ( 'NONE', #78, 7.500000000000001776 ) ;
#9 = AXIS2_PLACEMENT_3D ( 'NONE', #359, #160, #326 ) ;
#10 = DIRECTION ( 'NONE',  ( -1.000000000000000000, 0.000000000000000000, 0.000000000000000000 ) ) ;
#11 = DIRECTION ( 'NONE',  ( -0.000000000000000000, -0.000000000000000000, -1.000000000000000000 ) ) ;
#12 = EDGE_CURVE ( 'NONE', #300, #300, #362, .T. ) ;
#13 = CARTESIAN_POINT ( 'NONE',  ( 0.000000000000000000, 144.0000000000000000, 6.499999999999999112 ) ) ;
#14 = DIRECTION ( 'NONE',  ( -1.000000000000000000, 0.000000000000000000, 0.000000000000000000 ) ) ;
#15 = AXIS2_PLACEMENT_3D ( 'NONE', #217, #409, #406 ) ;
#16 = VERTEX_POINT ( 'NONE', #142 ) ;
#17 = APPROVAL ( #32, 'UNSPECIFIED' ) ;
#18 = VERTEX_POINT ( 'NONE', #208 ) ;
#19 = ORIENTED_EDGE ( 'NONE', *, *, #237, .F. ) ;
#20 = DIRECTION ( 'NONE',  ( -1.000000000000000000, 0.000000000000000000, 0.000000000000000000 ) ) ;
#21 = ORIENTED_EDGE ( 'NONE', *, *, #156, .T. ) ;
#22 = PERSON_AND_ORGANIZATION_ROLE ( 'creator' ) ;
#23 = EDGE_LOOP ( 'NONE', ( #397 ) ) ;
#24 = COORDINATED_UNIVERSAL_TIME_OFFSET ( 2, 0, .AHEAD. ) ;
#25 = CARTESIAN_POINT ( 'NONE',  ( 0.000000000000000000, -5.067816105816877587E-15, -6.499999999999999112 ) ) ;
#26 = MECHANICAL_CONTEXT ( 'NONE', #190, 'mechanical' ) ;
#27 = DIRECTION ( 'NONE',  ( -1.000000000000000000, 0.000000000000000000, 0.000000000000000000 ) ) ;
#28 = CIRCLE ( 'NONE', #218, 159.2350000000000136 ) ;
#29 = EDGE_CURVE ( 'NONE', #79, #79, #95, .T. ) ;
#30 = DATE_TIME_ROLE ( 'creation_date' ) ;
#31 = FACE_OUTER_BOUND ( 'NONE', #331, .T. ) ;
#32 = APPROVAL_STATUS ( 'not_yet_approved' ) ;
#33 = CARTESIAN_POINT ( 'NONE',  ( 0.000000000000000000, -5.067816105816877587E-15, -20.00000000000000355 ) ) ;
#34 = DIRECTION ( 'NONE',  ( 1.000000000000000000, 0.000000000000000000, 0.000000000000000000 ) ) ;
#35 = CIRCLE ( 'NONE', #389, 154.0000000000000000 ) ;
#36 = FACE_BOUND ( 'NONE', #90, .T. ) ;
#37 = FACE_OUTER_BOUND ( 'NONE', #194, .T. ) ;
#38 = PLANE ( 'NONE',  #107 ) ;
#39 = EDGE_LOOP ( 'NONE', ( #60 ) ) ;
#40 = DIRECTION ( 'NONE',  ( -0.000000000000000000, -0.000000000000000000, -1.000000000000000000 ) ) ;
#41 = FACE_BOUND ( 'NONE', #64, .T. ) ;
#42 = DIRECTION ( 'NONE',  ( 1.000000000000000000, 0.000000000000000000, -0.000000000000000000 ) ) ;
#43 = VERTEX_POINT ( 'NONE', #169 ) ;
#44 = EDGE_LOOP ( 'NONE', ( #202 ) ) ;
#45 = ADVANCED_FACE ( 'NONE', ( #65, #31 ), #285, .T. ) ;
#46 = DIRECTION ( 'NONE',  ( -1.000000000000000000, 0.000000000000000000, 0.000000000000000000 ) ) ;
#47 = FACE_OUTER_BOUND ( 'NONE', #250, .T. ) ;
#48 = ORIENTED_EDGE ( 'NONE', *, *, #97, .F. ) ;
#49 = EDGE_CURVE ( 'NONE', #174, #174, #384, .T. ) ;
#50 = DIRECTION ( 'NONE',  ( 0.000000000000000000, 0.000000000000000000, 1.000000000000000000 ) ) ;
#51 = LOCAL_TIME ( 9, 59, 6.000000000000000000, #283 ) ;
#52 = EDGE_LOOP ( 'NONE', ( #92 ) ) ;
#53 = AXIS2_PLACEMENT_3D ( 'NONE', #155, #187, #27 ) ;
#54 = AXIS2_PLACEMENT_3D ( 'NONE', #357, #164, #191 ) ;
#55 = PERSON_AND_ORGANIZATION ( #348, #247 ) ;
#56 = FACE_OUTER_BOUND ( 'NONE', #77, .T. ) ;
#57 = DATE_AND_TIME ( #59, #51 ) ;
#58 = DIRECTION ( 'NONE',  ( -0.000000000000000000, -0.000000000000000000, -1.000000000000000000 ) ) ;
#59 = CALENDAR_DATE ( 2025, 14, 8 ) ;
#60 = ORIENTED_EDGE ( 'NONE', *, *, #97, .T. ) ;
#61 = SECURITY_CLASSIFICATION ( '', '', #407 ) ;
#62 = CLOSED_SHELL ( 'NONE', ( #206, #320, #291, #282 ) ) ;
#63 = APPROVAL_ROLE ( '' ) ;
#64 = EDGE_LOOP ( 'NONE', ( #238 ) ) ;
#65 = FACE_BOUND ( 'NONE', #211, .T. ) ;
#66 = EDGE_CURVE ( 'NONE', #171, #171, #173, .T. ) ;
#67 = FACE_OUTER_BOUND ( 'NONE', #150, .T. ) ;
#68 = CALENDAR_DATE ( 2025, 14, 8 ) ;
#69 = DIRECTION ( 'NONE',  ( -0.000000000000000000, -0.000000000000000000, -1.000000000000000000 ) ) ;
#70 = EDGE_CURVE ( 'NONE', #305, #305, #2, .T. ) ;
#71 = ORIENTED_EDGE ( 'NONE', *, *, #12, .T. ) ;
#72 = CARTESIAN_POINT ( 'NONE',  ( 0.000000000000000000, 0.000000000000000000, -20.00000000000000000 ) ) ;
#73 = FACE_OUTER_BOUND ( 'NONE', #286, .T. ) ;
#74 = VERTEX_POINT ( 'NONE', #172 ) ;
#75 = CYLINDRICAL_SURFACE ( 'NONE', #265, 20.00000000000000000 ) ;
#76 = CC_DESIGN_PERSON_AND_ORGANIZATION_ASSIGNMENT ( #350, #219, ( #317 ) ) ;
#77 = EDGE_LOOP ( 'NONE', ( #141 ) ) ;
#78 = AXIS2_PLACEMENT_3D ( 'NONE', #84, #388, #205 ) ;
#79 = VERTEX_POINT ( 'NONE', #396 ) ;
#80 = AXIS2_PLACEMENT_3D ( 'NONE', #13, #386, #162 ) ;
#81 = EDGE_LOOP ( 'NONE', ( #94 ) ) ;
#82 = CARTESIAN_POINT ( 'NONE',  ( 0.000000000000000000, -5.067816105816877587E-15, -20.00000000000000000 ) ) ;
#83 = ADVANCED_FACE ( 'NONE', ( #56, #130 ), #255, .F. ) ;
#84 = CARTESIAN_POINT ( 'NONE',  ( 0.000000000000000000, -5.067816105816877587E-15, -20.00000000000000355 ) ) ;
#85 = EDGE_LOOP ( 'NONE', ( #121 ) ) ;
#86 = DESIGN_CONTEXT ( 'detailed design', #333, 'design' ) ;
#87 = APPROVAL_PERSON_ORGANIZATION ( #374, #125, #63 ) ;
#88 = DIRECTION ( 'NONE',  ( -1.000000000000000000, 0.000000000000000000, 0.000000000000000000 ) ) ;
#89 = CLOSED_SHELL ( 'NONE', ( #408, #83, #45, #400, #367, #178, #152, #301, #144, #223, #198, #336 ) ) ;
#90 = EDGE_LOOP ( 'NONE', ( #399 ) ) ;
#91 = EDGE_CURVE ( 'NONE', #18, #18, #124, .T. ) ;
#92 = ORIENTED_EDGE ( 'NONE', *, *, #6, .F. ) ;
#93 = CALENDAR_DATE ( 2025, 14, 8 ) ;
#94 = ORIENTED_EDGE ( 'NONE', *, *, #49, .T. ) ;
#95 = CIRCLE ( 'NONE', #15, 20.00000000000000000 ) ;
#96 = DIRECTION ( 'NONE',  ( -0.000000000000000000, -0.000000000000000000, -1.000000000000000000 ) ) ;
#97 = EDGE_CURVE ( 'NONE', #140, #140, #168, .T. ) ;
#98 = CARTESIAN_POINT ( 'NONE',  ( 0.000000000000000000, -5.067816105816877587E-15, -6.499999999999999112 ) ) ;
#99 = DATE_AND_TIME ( #68, #292 ) ;
#100 = DIRECTION ( 'NONE',  ( -0.000000000000000000, -0.000000000000000000, -1.000000000000000000 ) ) ;
#101 = AXIS2_PLACEMENT_3D ( 'NONE', #352, #129, #377 ) ;
#102 = CARTESIAN_POINT ( 'NONE',  ( 0.000000000000000000, -5.067816105816877587E-15, -20.00000000000000000 ) ) ;
#103 = EDGE_CURVE ( 'NONE', #138, #138, #404, .T. ) ;
#104 = ADVANCED_BREP_SHAPE_REPRESENTATION ( '250814 STEP 3-400775-00_6001', ( #204, #351, #239 ), #230 ) ;
#105 = DIRECTION ( 'NONE',  ( -1.000000000000000000, 0.000000000000000000, 0.000000000000000000 ) ) ;
#106 = FACE_OUTER_BOUND ( 'NONE', #44, .T. ) ;
#107 = AXIS2_PLACEMENT_3D ( 'NONE', #263, #293, #258 ) ;
#108 = CARTESIAN_POINT ( 'NONE',  ( 20.00000000000000000, -5.067816105816877587E-15, 20.00000000000000000 ) ) ;
#109 = EDGE_CURVE ( 'NONE', #264, #264, #325, .T. ) ;
#110 = CARTESIAN_POINT ( 'NONE',  ( -20.00000000000000000, -5.067816105816877587E-15, -6.499999999999999112 ) ) ;
#111 = EDGE_LOOP ( 'NONE', ( #335 ) ) ;
#112 = CARTESIAN_POINT ( 'NONE',  ( 0.000000000000000000, 19.99999999999999645, -6.499999999999999112 ) ) ;
#113 = EDGE_LOOP ( 'NONE', ( #267 ) ) ;
#114 = CARTESIAN_POINT ( 'NONE',  ( -159.2350000000000136, 0.000000000000000000, -20.00000000000000000 ) ) ;
#115 = AXIS2_PLACEMENT_3D ( 'NONE', #411, #189, #214 ) ;
#116 = CC_DESIGN_DATE_AND_TIME_ASSIGNMENT ( #401, #181, ( #61 ) ) ;
#117 = EDGE_LOOP ( 'NONE', ( #371 ) ) ;
#118 = CARTESIAN_POINT ( 'NONE',  ( 144.0000000000000000, -5.067816105816877587E-15, 6.499999999999999112 ) ) ;
#119 = EDGE_LOOP ( 'NONE', ( #71 ) ) ;
#120 = CARTESIAN_POINT ( 'NONE',  ( -7.500000000000001776, -5.067816105816877587E-15, -20.00000000000000355 ) ) ;
#121 = ORIENTED_EDGE ( 'NONE', *, *, #66, .F. ) ;
#122 = DIRECTION ( 'NONE',  ( 1.000000000000000000, 0.000000000000000000, 0.000000000000000000 ) ) ;
#123 = CARTESIAN_POINT ( 'NONE',  ( 0.000000000000000000, -5.067816105816877587E-15, -20.00000000000000355 ) ) ;
#124 = CIRCLE ( 'NONE', #240, 154.0000000000000000 ) ;
#125 = APPROVAL ( #126, 'UNSPECIFIED' ) ;
#126 = APPROVAL_STATUS ( 'not_yet_approved' ) ;
#127 = CARTESIAN_POINT ( 'NONE',  ( 0.000000000000000000, -5.067816105816877587E-15, 6.499999999999999112 ) ) ;
#128 = PERSON_AND_ORGANIZATION_ROLE ( 'creator' ) ;
#129 = DIRECTION ( 'NONE',  ( -0.000000000000000000, -0.000000000000000000, -1.000000000000000000 ) ) ;
#130 = FACE_OUTER_BOUND ( 'NONE', #85, .T. ) ;
#131 = EDGE_LOOP ( 'NONE', ( #246 ) ) ;
#132 = PRODUCT_DEFINITION_SHAPE ( 'NONE', 'NONE',  #268 ) ;
#133 = PLANE ( 'NONE',  #80 ) ;
#134 = FACE_OUTER_BOUND ( 'NONE', #23, .T. ) ;
#135 = AXIS2_PLACEMENT_3D ( 'NONE', #112, #273, #46 ) ;
#136 = FACE_OUTER_BOUND ( 'NONE', #117, .T. ) ;
#137 = FACE_OUTER_BOUND ( 'NONE', #81, .T. ) ;
#138 = VERTEX_POINT ( 'NONE', #365 ) ;
#139 = AXIS2_PLACEMENT_3D ( 'NONE', #33, #183, #213 ) ;
#140 = VERTEX_POINT ( 'NONE', #145 ) ;
#141 = ORIENTED_EDGE ( 'NONE', *, *, #363, .T. ) ;
#142 = CARTESIAN_POINT ( 'NONE',  ( -154.0000000000000000, -5.067816105816877587E-15, 20.00000000000000000 ) ) ;
#143 = EDGE_LOOP ( 'NONE', ( #19 ) ) ;
#144 = ADVANCED_FACE ( 'NONE', ( #154, #347 ), #278, .T. ) ;
#145 = CARTESIAN_POINT ( 'NONE',  ( -144.0000000000000000, -5.067816105816877587E-15, -6.499999999999999112 ) ) ;
#146 = ORIENTED_EDGE ( 'NONE', *, *, #91, .F. ) ;
#147 = FACE_OUTER_BOUND ( 'NONE', #322, .T. ) ;
#148 = EDGE_LOOP ( 'NONE', ( #21 ) ) ;
#149 = PERSON_AND_ORGANIZATION ( #348, #247 ) ;
#150 = EDGE_LOOP ( 'NONE', ( #391 ) ) ;
#151 = DIRECTION ( 'NONE',  ( 1.000000000000000000, 0.000000000000000000, 0.000000000000000000 ) ) ;
#152 = ADVANCED_FACE ( 'NONE', ( #36, #356 ), #383, .T. ) ;
#153 = APPROVAL_DATE_TIME ( #353, #17 ) ;
#154 = FACE_BOUND ( 'NONE', #170, .T. ) ;
#155 = CARTESIAN_POINT ( 'NONE',  ( 0.000000000000000000, -5.067816105816877587E-15, 20.00000000000000000 ) ) ;
#156 = EDGE_CURVE ( 'NONE', #200, #200, #349, .T. ) ;
#157 = EDGE_LOOP ( 'NONE', ( #146 ) ) ;
#158 = DIRECTION ( 'NONE',  ( -0.000000000000000000, -0.000000000000000000, -1.000000000000000000 ) ) ;
#159 = CARTESIAN_POINT ( 'NONE',  ( 0.000000000000000000, 144.0000000000000000, -20.00000000000000355 ) ) ;
#160 = DIRECTION ( 'NONE',  ( -0.000000000000000000, -0.000000000000000000, -1.000000000000000000 ) ) ;
#161 = EDGE_CURVE ( 'NONE', #201, #201, #28, .T. ) ;
#162 = DIRECTION ( 'NONE',  ( 1.000000000000000000, 0.000000000000000000, -0.000000000000000000 ) ) ;
#163 = ORIENTED_EDGE ( 'NONE', *, *, #244, .F. ) ;
#164 = DIRECTION ( 'NONE',  ( -0.000000000000000000, -0.000000000000000000, -1.000000000000000000 ) ) ;
#165 = CARTESIAN_POINT ( 'NONE',  ( 0.000000000000000000, 154.0000000000000000, -20.00000000000000000 ) ) ;
#166 = CC_DESIGN_DATE_AND_TIME_ASSIGNMENT ( #57, #30, ( #268 ) ) ;
#167 = CARTESIAN_POINT ( 'NONE',  ( -7.500000000000001776, -5.067816105816877587E-15, 20.00000000000000000 ) ) ;
#168 = CIRCLE ( 'NONE', #197, 144.0000000000000000 ) ;
#169 = CARTESIAN_POINT ( 'NONE',  ( -154.0000000000000000, 0.000000000000000000, -20.00000000000000000 ) ) ;
#170 = EDGE_LOOP ( 'NONE', ( #303 ) ) ;
#171 = VERTEX_POINT ( 'NONE', #167 ) ;
#172 = CARTESIAN_POINT ( 'NONE',  ( -20.00000000000000000, -5.067816105816877587E-15, -20.00000000000000355 ) ) ;
#173 = CIRCLE ( 'NONE', #53, 7.500000000000001776 ) ;
#174 = VERTEX_POINT ( 'NONE', #118 ) ;
#175 = AXIS2_PLACEMENT_3D ( 'NONE', #387, #193, #361 ) ;
#176 = ORIENTED_EDGE ( 'NONE', *, *, #49, .F. ) ;
#177 = APPROVAL_STATUS ( 'not_yet_approved' ) ;
#178 = ADVANCED_FACE ( 'NONE', ( #106, #324 ), #355, .F. ) ;
#179 = ORIENTED_EDGE ( 'NONE', *, *, #109, .T. ) ;
#180 = DIRECTION ( 'NONE',  ( -0.000000000000000000, -0.000000000000000000, -1.000000000000000000 ) ) ;
#181 = DATE_TIME_ROLE ( 'classification_date' ) ;
#182 = AXIS2_PLACEMENT_3D ( 'NONE', #82, #369, #269 ) ;
#183 = DIRECTION ( 'NONE',  ( -0.000000000000000000, -0.000000000000000000, -1.000000000000000000 ) ) ;
#184 = AXIS2_PLACEMENT_3D ( 'NONE', #159, #192, #7 ) ;
#185 = CC_DESIGN_PERSON_AND_ORGANIZATION_ASSIGNMENT ( #188, #22, ( #323 ) ) ;
#186 = PERSON_AND_ORGANIZATION ( #348, #247 ) ;
#187 = DIRECTION ( 'NONE',  ( -0.000000000000000000, -0.000000000000000000, -1.000000000000000000 ) ) ;
#188 = PERSON_AND_ORGANIZATION ( #348, #247 ) ;
#189 = DIRECTION ( 'NONE',  ( -0.000000000000000000, 0.000000000000000000, -1.000000000000000000 ) ) ;
#190 = APPLICATION_CONTEXT ( 'configuration controlled 3d designs of mechanical parts and assemblies' ) ;
#191 = DIRECTION ( 'NONE',  ( -1.000000000000000000, 0.000000000000000000, 0.000000000000000000 ) ) ;
#192 = DIRECTION ( 'NONE',  ( -0.000000000000000000, 0.000000000000000000, -1.000000000000000000 ) ) ;
#193 = DIRECTION ( 'NONE',  ( -0.000000000000000000, -0.000000000000000000, -1.000000000000000000 ) ) ;
#194 = EDGE_LOOP ( 'NONE', ( #315 ) ) ;
#195 = APPROVAL_DATE_TIME ( #99, #249 ) ;
#196 = CYLINDRICAL_SURFACE ( 'NONE', #54, 154.0000000000000000 ) ;
#197 = AXIS2_PLACEMENT_3D ( 'NONE', #25, #284, #381 ) ;
#198 = ADVANCED_FACE ( 'NONE', ( #5, #319 ), #133, .T. ) ;
#199 = DIRECTION ( 'NONE',  ( 1.000000000000000000, 0.000000000000000000, -0.000000000000000000 ) ) ;
#200 = VERTEX_POINT ( 'NONE', #110 ) ;
#201 = VERTEX_POINT ( 'NONE', #329 ) ;
#202 = ORIENTED_EDGE ( 'NONE', *, *, #70, .T. ) ;
#203 = AXIS2_PLACEMENT_3D ( 'NONE', #98, #295, #296 ) ;
#204 = MANIFOLD_SOLID_BREP ( 'Revolve2', #62 ) ;
#205 = DIRECTION ( 'NONE',  ( -1.000000000000000000, 0.000000000000000000, 0.000000000000000000 ) ) ;
#206 = ADVANCED_FACE ( 'NONE', ( #261, #134 ), #38, .T. ) ;
#207 = FACE_OUTER_BOUND ( 'NONE', #148, .T. ) ;
#208 = CARTESIAN_POINT ( 'NONE',  ( -154.0000000000000000, -5.067816105816877587E-15, -20.00000000000000000 ) ) ;
#209 = EDGE_CURVE ( 'NONE', #43, #43, #35, .T. ) ;
#210 = AXIS2_PLACEMENT_3D ( 'NONE', #165, #257, #382 ) ;
#211 = EDGE_LOOP ( 'NONE', ( #235 ) ) ;
#212 = CARTESIAN_POINT ( 'NONE',  ( 0.000000000000000000, 0.000000000000000000, 0.000000000000000000 ) ) ;
#213 = DIRECTION ( 'NONE',  ( -1.000000000000000000, 0.000000000000000000, 0.000000000000000000 ) ) ;
#214 = DIRECTION ( 'NONE',  ( -1.000000000000000000, 0.000000000000000000, 0.000000000000000000 ) ) ;
#215 = AXIS2_PLACEMENT_3D ( 'NONE', #385, #69, #20 ) ;
#216 = UNCERTAINTY_MEASURE_WITH_UNIT (LENGTH_MEASURE( 1.000000000000000082E-05 ), #251, 'distance_accuracy_value', 'NONE');
#217 = CARTESIAN_POINT ( 'NONE',  ( 0.000000000000000000, -5.067816105816877587E-15, 6.499999999999999112 ) ) ;
#218 = AXIS2_PLACEMENT_3D ( 'NONE', #221, #289, #227 ) ;
#219 = PERSON_AND_ORGANIZATION_ROLE ( 'design_owner' ) ;
#220 = DIRECTION ( 'NONE',  ( -1.000000000000000000, 0.000000000000000000, 0.000000000000000000 ) ) ;
#221 = CARTESIAN_POINT ( 'NONE',  ( 0.000000000000000000, 0.000000000000000000, 20.00000000000003553 ) ) ;
#222 = SHAPE_DEFINITION_REPRESENTATION ( #132, #104 ) ;
#223 = ADVANCED_FACE ( 'NONE', ( #136, #137 ), #229, .F. ) ;
#224 = APPROVAL_PERSON_ORGANIZATION ( #55, #249, #307 ) ;
#225 = CARTESIAN_POINT ( 'NONE',  ( 0.000000000000000000, 0.000000000000000000, -20.00000000000000000 ) ) ;
#226 = AXIS2_PLACEMENT_3D ( 'NONE', #313, #58, #402 ) ;
#227 = DIRECTION ( 'NONE',  ( -1.000000000000000000, 0.000000000000000000, 0.000000000000000000 ) ) ;
#228 = FACE_OUTER_BOUND ( 'NONE', #276, .T. ) ;
#229 = CYLINDRICAL_SURFACE ( 'NONE', #232, 144.0000000000000000 ) ;
#230 =( GEOMETRIC_REPRESENTATION_CONTEXT ( 3 ) GLOBAL_UNCERTAINTY_ASSIGNED_CONTEXT ( ( #216 ) ) GLOBAL_UNIT_ASSIGNED_CONTEXT ( ( #251, #346, #309 ) ) REPRESENTATION_CONTEXT ( 'NONE', 'WORKASPACE' ) );
#231 = AXIS2_PLACEMENT_3D ( 'NONE', #123, #345, #88 ) ;
#232 = AXIS2_PLACEMENT_3D ( 'NONE', #102, #11, #105 ) ;
#233 = CARTESIAN_POINT ( 'NONE',  ( 0.000000000000000000, 0.000000000000000000, 0.000000000000000000 ) ) ;
#234 = DIRECTION ( 'NONE',  ( -0.000000000000000000, -0.000000000000000000, -1.000000000000000000 ) ) ;
#235 = ORIENTED_EDGE ( 'NONE', *, *, #363, .F. ) ;
#236 = FACE_OUTER_BOUND ( 'NONE', #52, .T. ) ;
#237 = EDGE_CURVE ( 'NONE', #16, #16, #287, .T. ) ;
#238 = ORIENTED_EDGE ( 'NONE', *, *, #209, .F. ) ;
#239 = AXIS2_PLACEMENT_3D ( 'NONE', #212, #314, #122 ) ;
#240 = AXIS2_PLACEMENT_3D ( 'NONE', #308, #158, #4 ) ;
#241 = FACE_OUTER_BOUND ( 'NONE', #113, .T. ) ;
#242 = FACE_BOUND ( 'NONE', #111, .T. ) ;
#243 = EDGE_LOOP ( 'NONE', ( #274 ) ) ;
#244 = EDGE_CURVE ( 'NONE', #393, #393, #3, .T. ) ;
#245 = APPLICATION_PROTOCOL_DEFINITION ( 'international standard', 'config_control_design', 1994, #333 ) ;
#246 = ORIENTED_EDGE ( 'NONE', *, *, #29, .T. ) ;
#247 = ORGANIZATION ( 'UNSPECIFIED', 'UNSPECIFIED', '' ) ;
#248 = CARTESIAN_POINT ( 'NONE',  ( 0.000000000000000000, -5.067816105816877587E-15, 20.00000000000000711 ) ) ;
#249 = APPROVAL ( #177, 'UNSPECIFIED' ) ;
#250 = EDGE_LOOP ( 'NONE', ( #272 ) ) ;
#251 =( LENGTH_UNIT ( ) NAMED_UNIT ( * ) SI_UNIT ( .MILLI., .METRE. ) );
#252 = EDGE_LOOP ( 'NONE', ( #299 ) ) ;
#253 = CALENDAR_DATE ( 2025, 14, 8 ) ;
#254 = CC_DESIGN_APPROVAL ( #125, ( #268 ) ) ;
#255 = CYLINDRICAL_SURFACE ( 'NONE', #226, 7.500000000000001776 ) ;
#256 = AXIS2_PLACEMENT_3D ( 'NONE', #127, #310, #34 ) ;
#257 = DIRECTION ( 'NONE',  ( -0.000000000000000000, 0.000000000000000000, -1.000000000000000000 ) ) ;
#258 = DIRECTION ( 'NONE',  ( 1.000000000000000000, 0.000000000000000000, -0.000000000000000000 ) ) ;
#259 = CC_DESIGN_APPROVAL ( #17, ( #323 ) ) ;
#260 = CYLINDRICAL_SURFACE ( 'NONE', #215, 154.0000000000000000 ) ;
#261 = FACE_BOUND ( 'NONE', #119, .T. ) ;
#262 = CC_DESIGN_PERSON_AND_ORGANIZATION_ASSIGNMENT ( #378, #128, ( #268 ) ) ;
#263 = CARTESIAN_POINT ( 'NONE',  ( 0.000000000000000000, 154.0000000000000000, 20.00000000000001776 ) ) ;
#264 = VERTEX_POINT ( 'NONE', #108 ) ;
#265 = AXIS2_PLACEMENT_3D ( 'NONE', #271, #234, #14 ) ;
#266 = FACE_OUTER_BOUND ( 'NONE', #39, .T. ) ;
#267 = ORIENTED_EDGE ( 'NONE', *, *, #161, .T. ) ;
#268 = PRODUCT_DEFINITION ( 'UNKNOWN', '', #323, #86 ) ;
#269 = DIRECTION ( 'NONE',  ( -1.000000000000000000, 0.000000000000000000, 0.000000000000000000 ) ) ;
#270 = ORIENTED_EDGE ( 'NONE', *, *, #209, .T. ) ;
#271 = CARTESIAN_POINT ( 'NONE',  ( 0.000000000000000000, -5.067816105816877587E-15, -20.00000000000000000 ) ) ;
#272 = ORIENTED_EDGE ( 'NONE', *, *, #109, .F. ) ;
#273 = DIRECTION ( 'NONE',  ( -0.000000000000000000, 0.000000000000000000, -1.000000000000000000 ) ) ;
#274 = ORIENTED_EDGE ( 'NONE', *, *, #29, .F. ) ;
#275 = PERSON_AND_ORGANIZATION ( #348, #247 ) ;
#276 = EDGE_LOOP ( 'NONE', ( #270 ) ) ;
#277 = COORDINATED_UNIVERSAL_TIME_OFFSET ( 2, 0, .AHEAD. ) ;
#278 = PLANE ( 'NONE',  #332 ) ;
#279 = AXIS2_PLACEMENT_3D ( 'NONE', #248, #180, #151 ) ;
#280 = PERSON_AND_ORGANIZATION_ROLE ( 'design_supplier' ) ;
#281 = DIRECTION ( 'NONE',  ( 0.000000000000000000, 0.000000000000000000, 1.000000000000000000 ) ) ;
#282 = ADVANCED_FACE ( 'NONE', ( #228, #67 ), #196, .F. ) ;
#283 = COORDINATED_UNIVERSAL_TIME_OFFSET ( 2, 0, .AHEAD. ) ;
#284 = DIRECTION ( 'NONE',  ( -0.000000000000000000, -0.000000000000000000, -1.000000000000000000 ) ) ;
#285 = PLANE ( 'NONE',  #115 ) ;
#286 = EDGE_LOOP ( 'NONE', ( #379 ) ) ;
#287 = CIRCLE ( 'NONE', #175, 154.0000000000000000 ) ;
#288 = PRODUCT_RELATED_PRODUCT_CATEGORY ( 'detail', '', ( #317 ) ) ;
#289 = DIRECTION ( 'NONE',  ( -0.000000000000000000, -0.000000000000000000, -1.000000000000000000 ) ) ;
#290 = FACE_OUTER_BOUND ( 'NONE', #157, .T. ) ;
#291 = ADVANCED_FACE ( 'NONE', ( #73, #41 ), #318, .T. ) ;
#292 = LOCAL_TIME ( 9, 59, 6.000000000000000000, #312 ) ;
#293 = DIRECTION ( 'NONE',  ( 0.000000000000000000, 0.000000000000000000, 1.000000000000000000 ) ) ;
#294 = AXIS2_PLACEMENT_3D ( 'NONE', #343, #96, #220 ) ;
#295 = DIRECTION ( 'NONE',  ( -0.000000000000000000, -0.000000000000000000, -1.000000000000000000 ) ) ;
#296 = DIRECTION ( 'NONE',  ( -1.000000000000000000, 0.000000000000000000, 0.000000000000000000 ) ) ;
#297 = PLANE ( 'NONE',  #135 ) ;
#298 = CARTESIAN_POINT ( 'NONE',  ( 0.000000000000000000, 19.99999999999999645, 20.00000000000000000 ) ) ;
#299 = ORIENTED_EDGE ( 'NONE', *, *, #66, .T. ) ;
#300 = VERTEX_POINT ( 'NONE', #302 ) ;
#301 = ADVANCED_FACE ( 'NONE', ( #37, #290 ), #260, .T. ) ;
#302 = CARTESIAN_POINT ( 'NONE',  ( -154.0000000000000000, 0.000000000000000000, 20.00000000000000000 ) ) ;
#303 = ORIENTED_EDGE ( 'NONE', *, *, #103, .T. ) ;
#304 = APPROVAL_PERSON_ORGANIZATION ( #186, #17, #410 ) ;
#305 = VERTEX_POINT ( 'NONE', #390 ) ;
#306 = ORIENTED_EDGE ( 'NONE', *, *, #91, .T. ) ;
#307 = APPROVAL_ROLE ( '' ) ;
#308 = CARTESIAN_POINT ( 'NONE',  ( 0.000000000000000000, -5.067816105816877587E-15, -20.00000000000000000 ) ) ;
#309 =( NAMED_UNIT ( * ) SI_UNIT ( $, .STERADIAN. ) SOLID_ANGLE_UNIT ( ) );
#310 = DIRECTION ( 'NONE',  ( -0.000000000000000000, -0.000000000000000000, -1.000000000000000000 ) ) ;
#311 = AXIS2_PLACEMENT_3D ( 'NONE', #233, #368, #334 ) ;
#312 = COORDINATED_UNIVERSAL_TIME_OFFSET ( 2, 0, .AHEAD. ) ;
#313 = CARTESIAN_POINT ( 'NONE',  ( 0.000000000000000000, -5.067816105816877587E-15, -20.00000000000000000 ) ) ;
#314 = DIRECTION ( 'NONE',  ( 0.000000000000000000, 0.000000000000000000, 1.000000000000000000 ) ) ;
#315 = ORIENTED_EDGE ( 'NONE', *, *, #237, .T. ) ;
#316 = EDGE_LOOP ( 'NONE', ( #306 ) ) ;
#317 = PRODUCT ( '250814 STEP 3-400775-00_6001', '250814 STEP 3-400775-00_6001', '', ( #26 ) ) ;
#318 = PLANE ( 'NONE',  #210 ) ;
#319 = FACE_OUTER_BOUND ( 'NONE', #338, .T. ) ;
#320 = ADVANCED_FACE ( 'NONE', ( #241, #327 ), #392, .T. ) ;
#321 = DIRECTION ( 'NONE',  ( -1.000000000000000000, 0.000000000000000000, 0.000000000000000000 ) ) ;
#322 = EDGE_LOOP ( 'NONE', ( #179 ) ) ;
#323 = PRODUCT_DEFINITION_FORMATION_WITH_SPECIFIED_SOURCE ( 'ANY', '', #317, .NOT_KNOWN. ) ;
#324 = FACE_OUTER_BOUND ( 'NONE', #395, .T. ) ;
#325 = CIRCLE ( 'NONE', #101, 20.00000000000000000 ) ;
#326 = DIRECTION ( 'NONE',  ( -1.000000000000000000, 0.000000000000000000, 0.000000000000000000 ) ) ;
#327 = FACE_OUTER_BOUND ( 'NONE', #340, .T. ) ;
#328 = CC_DESIGN_PERSON_AND_ORGANIZATION_ASSIGNMENT ( #275, #398, ( #61 ) ) ;
#329 = CARTESIAN_POINT ( 'NONE',  ( -159.2350000000000136, 0.000000000000000000, 20.00000000000003553 ) ) ;
#330 = AXIS2_PLACEMENT_3D ( 'NONE', #298, #50, #42 ) ;
#331 = EDGE_LOOP ( 'NONE', ( #375 ) ) ;
#332 = AXIS2_PLACEMENT_3D ( 'NONE', #354, #281, #199 ) ;
#333 = APPLICATION_CONTEXT ( 'configuration controlled 3d designs of mechanical parts and assemblies' ) ;
#334 = DIRECTION ( 'NONE',  ( -1.000000000000000000, 0.000000000000000000, 0.000000000000000000 ) ) ;
#335 = ORIENTED_EDGE ( 'NONE', *, *, #156, .F. ) ;
#336 = ADVANCED_FACE ( 'NONE', ( #147, #339 ), #337, .T. ) ;
#337 = CYLINDRICAL_SURFACE ( 'NONE', #182, 20.00000000000000000 ) ;
#338 = EDGE_LOOP ( 'NONE', ( #176 ) ) ;
#339 = FACE_OUTER_BOUND ( 'NONE', #243, .T. ) ;
#340 = EDGE_LOOP ( 'NONE', ( #163 ) ) ;
#341 = AXIS2_PLACEMENT_3D ( 'NONE', #225, #40, #321 ) ;
#342 = CALENDAR_DATE ( 2025, 14, 8 ) ;
#343 = CARTESIAN_POINT ( 'NONE',  ( 0.000000000000000000, 0.000000000000000000, 20.00000000000000000 ) ) ;
#344 = DATE_AND_TIME ( #93, #1 ) ;
#345 = DIRECTION ( 'NONE',  ( -0.000000000000000000, -0.000000000000000000, -1.000000000000000000 ) ) ;
#346 =( NAMED_UNIT ( * ) PLANE_ANGLE_UNIT ( ) SI_UNIT ( $, .RADIAN. ) );
#347 = FACE_OUTER_BOUND ( 'NONE', #143, .T. ) ;
#348 = PERSON ( 'UNSPECIFIED', 'UNSPECIFIED', 'UNSPECIFIED', ('UNSPECIFIED'), ('UNSPECIFIED'), ('UNSPECIFIED') ) ;
#349 = CIRCLE ( 'NONE', #203, 20.00000000000000000 ) ;
#350 = PERSON_AND_ORGANIZATION ( #348, #247 ) ;
#351 = MANIFOLD_SOLID_BREP ( 'DeleteFace1', #89 ) ;
#352 = CARTESIAN_POINT ( 'NONE',  ( 0.000000000000000000, -5.067816105816877587E-15, 20.00000000000000000 ) ) ;
#353 = DATE_AND_TIME ( #253, #394 ) ;
#354 = CARTESIAN_POINT ( 'NONE',  ( 0.000000000000000000, 154.0000000000000000, 20.00000000000000355 ) ) ;
#355 = CYLINDRICAL_SURFACE ( 'NONE', #9, 144.0000000000000000 ) ;
#356 = FACE_OUTER_BOUND ( 'NONE', #316, .T. ) ;
#357 = CARTESIAN_POINT ( 'NONE',  ( 0.000000000000000000, 0.000000000000000000, 0.000000000000000000 ) ) ;
#358 = CC_DESIGN_PERSON_AND_ORGANIZATION_ASSIGNMENT ( #149, #280, ( #323 ) ) ;
#359 = CARTESIAN_POINT ( 'NONE',  ( 0.000000000000000000, -5.067816105816877587E-15, -20.00000000000000000 ) ) ;
#360 = CC_DESIGN_SECURITY_CLASSIFICATION ( #61, ( #323 ) ) ;
#361 = DIRECTION ( 'NONE',  ( -1.000000000000000000, 0.000000000000000000, 0.000000000000000000 ) ) ;
#362 = CIRCLE ( 'NONE', #294, 154.0000000000000000 ) ;
#363 = EDGE_CURVE ( 'NONE', #380, #380, #8, .T. ) ;
#364 = FACE_BOUND ( 'NONE', #252, .T. ) ;
#365 = CARTESIAN_POINT ( 'NONE',  ( 144.0000000000000000, -5.067816105816877587E-15, 20.00000000000000711 ) ) ;
#366 = PLANE ( 'NONE',  #330 ) ;
#367 = ADVANCED_FACE ( 'NONE', ( #242, #266 ), #297, .T. ) ;
#368 = DIRECTION ( 'NONE',  ( -0.000000000000000000, -0.000000000000000000, -1.000000000000000000 ) ) ;
#369 = DIRECTION ( 'NONE',  ( -0.000000000000000000, -0.000000000000000000, -1.000000000000000000 ) ) ;
#370 = COORDINATED_UNIVERSAL_TIME_OFFSET ( 2, 0, .AHEAD. ) ;
#371 = ORIENTED_EDGE ( 'NONE', *, *, #103, .F. ) ;
#372 = LOCAL_TIME ( 9, 59, 6.000000000000000000, #370 ) ;
#373 = CIRCLE ( 'NONE', #139, 20.00000000000000000 ) ;
#374 = PERSON_AND_ORGANIZATION ( #348, #247 ) ;
#375 = ORIENTED_EDGE ( 'NONE', *, *, #6, .T. ) ;
#376 = APPROVAL_DATE_TIME ( #344, #125 ) ;
#377 = DIRECTION ( 'NONE',  ( 1.000000000000000000, 0.000000000000000000, 0.000000000000000000 ) ) ;
#378 = PERSON_AND_ORGANIZATION ( #348, #247 ) ;
#379 = ORIENTED_EDGE ( 'NONE', *, *, #244, .T. ) ;
#380 = VERTEX_POINT ( 'NONE', #120 ) ;
#381 = DIRECTION ( 'NONE',  ( -1.000000000000000000, 0.000000000000000000, 0.000000000000000000 ) ) ;
#382 = DIRECTION ( 'NONE',  ( -1.000000000000000000, 0.000000000000000000, 0.000000000000000000 ) ) ;
#383 = PLANE ( 'NONE',  #184 ) ;
#384 = CIRCLE ( 'NONE', #256, 144.0000000000000000 ) ;
#385 = CARTESIAN_POINT ( 'NONE',  ( 0.000000000000000000, -5.067816105816877587E-15, -20.00000000000000000 ) ) ;
#386 = DIRECTION ( 'NONE',  ( 0.000000000000000000, 0.000000000000000000, 1.000000000000000000 ) ) ;
#387 = CARTESIAN_POINT ( 'NONE',  ( 0.000000000000000000, -5.067816105816877587E-15, 20.00000000000000000 ) ) ;
#388 = DIRECTION ( 'NONE',  ( -0.000000000000000000, -0.000000000000000000, -1.000000000000000000 ) ) ;
#389 = AXIS2_PLACEMENT_3D ( 'NONE', #72, #100, #10 ) ;
#390 = CARTESIAN_POINT ( 'NONE',  ( -144.0000000000000000, -5.067816105816877587E-15, -20.00000000000000355 ) ) ;
#391 = ORIENTED_EDGE ( 'NONE', *, *, #12, .F. ) ;
#392 = CYLINDRICAL_SURFACE ( 'NONE', #311, 159.2350000000000136 ) ;
#393 = VERTEX_POINT ( 'NONE', #114 ) ;
#394 = LOCAL_TIME ( 9, 59, 6.000000000000000000, #277 ) ;
#395 = EDGE_LOOP ( 'NONE', ( #48 ) ) ;
#396 = CARTESIAN_POINT ( 'NONE',  ( 20.00000000000000000, -5.067816105816877587E-15, 6.499999999999999112 ) ) ;
#397 = ORIENTED_EDGE ( 'NONE', *, *, #161, .F. ) ;
#398 = PERSON_AND_ORGANIZATION_ROLE ( 'classification_officer' ) ;
#399 = ORIENTED_EDGE ( 'NONE', *, *, #70, .F. ) ;
#400 = ADVANCED_FACE ( 'NONE', ( #236, #207 ), #75, .T. ) ;
#401 = DATE_AND_TIME ( #342, #372 ) ;
#402 = DIRECTION ( 'NONE',  ( -1.000000000000000000, 0.000000000000000000, 0.000000000000000000 ) ) ;
#403 = CC_DESIGN_APPROVAL ( #249, ( #61 ) ) ;
#404 = CIRCLE ( 'NONE', #279, 144.0000000000000000 ) ;
#405 = APPLICATION_PROTOCOL_DEFINITION ( 'international standard', 'config_control_design', 1994, #190 ) ;
#406 = DIRECTION ( 'NONE',  ( 1.000000000000000000, 0.000000000000000000, 0.000000000000000000 ) ) ;
#407 = SECURITY_CLASSIFICATION_LEVEL ( 'unclassified' ) ;
#408 = ADVANCED_FACE ( 'NONE', ( #47, #364 ), #366, .T. ) ;
#409 = DIRECTION ( 'NONE',  ( -0.000000000000000000, -0.000000000000000000, -1.000000000000000000 ) ) ;
#410 = APPROVAL_ROLE ( '' ) ;
#411 = CARTESIAN_POINT ( 'NONE',  ( 0.000000000000000000, 7.499999999999996447, -20.00000000000000355 ) ) ;
ENDSEC;
END-ISO-10303-21;
